Page 1 of 1

I DEMAND a tablature to Tears in the Rain

PostPosted: Fri Nov 23, 2012 12:27 am
by iamjor
No new posts on the tablature forum since August 2012. Lets change that.

Novice guitar player here I desperately require the Tears in the Rain tablature. I want the opening riff, chords, solo, lyrics - the lot.

Yes I know I'm very demanding but I know one of you out there has it and I can drive my family crazy learning it (strangely they think i'm a "shit" guitar player)

Thanks in advance guys

Re: I DEMAND a tablature to Tears in the Rain

PostPosted: Mon Nov 26, 2012 10:01 pm
by iamjor
Oh dear, don't all reply at once guys !

I'll have to wait a couple of weeks and then send out a "Final Demand", just like the electricity company does !!!

Re: I DEMAND a tablature to Tears in the Rain

PostPosted: Wed Nov 28, 2012 10:01 pm
by Neil83
Here you go http://www.the-las.com/forums/viewtopic.php?f=14&t=2414

Pretty easy to play. Even I can make a fairly decent fist of it.

Re: I DEMAND a tablature to Tears in the Rain

PostPosted: Thu Feb 14, 2013 2:17 am
by iamjor
God bless you Neil83.
Not sure about the G chord though, doesn't sound right.

Re: I DEMAND a tablature to Tears in the Rain

PostPosted: Sat Feb 16, 2013 6:02 pm
by Ninny
Tears In The Rain goes more like this:

--------0----------0------------0----------------------
--------0----------0h1---------0----------------------
--------0----------0------------2----------------------
--------2--------2-----------1-------------------------
-----2-----2--3--------3--2-------2--2--3--2---------
--0-----------------------------------------------3--0--
Em C B7

The chorus is Am B7 Em C B7 but I think he slips a G in there sometimes.
And the riff after the B7 varies, such as:

------------------
------------------
------------------
--------1---------
--2--3----3--2---
-------------------