Go Go Daddy

MODERATED Musical notation for songs by The La's.

Moderators: Tony, Syl

Go Go Daddy

Postby kopite1892 » Mon Dec 26, 2011 12:29 pm

I love late, Boxing Day presents me.

Someone who sorted this one out may save my life ?
Been humming this tune for months, probably my fave off the Kitchen Tape.

Chords, tabs, whatever...
kopite1892
 
Posts: 111
Joined: Mon Jun 06, 2011 4:55 pm

Re: Go Go Daddy

Postby Ninny » Mon Dec 26, 2011 1:18 pm

Ho ho ho....

Riff 1
--3--1-------------------
---------3--1------------
-----------------3--0----
--------------------------
--------------------------
--------------------------

Intro: G Dm F C

G----Dm---F Riff 1
Oooooooh - Go Go Daddy!

G----Dm---F Riff 1
...................Where'ya headin'?

G----Dm---F Riff 1
......................

F--- C-----G Riff 1
.....Got no money

F--- C-----G Riff 1
.....Got nobody

F--- C-----G Riff 1
.....Got no darlin'

F-----------C
Where you headin'?
Ninny
 
Posts: 31
Joined: Mon Dec 06, 2010 7:50 pm

Re: Go Go Daddy

Postby kopite1892 » Thu Dec 29, 2011 2:05 pm

Ninny wrote:Ho ho ho....

Riff 1
--3--1-------------------
---------3--1------------
-----------------3--0----
--------------------------
--------------------------
--------------------------

Intro: G Dm F C

G----Dm---F Riff 1
Oooooooh - Go Go Daddy!

G----Dm---F Riff 1
...................Where'ya headin'?

G----Dm---F Riff 1
......................

F--- C-----G Riff 1
.....Got no money

F--- C-----G Riff 1
.....Got nobody

F--- C-----G Riff 1
.....Got no darlin'

F-----------C
Where you headin'?


You life saving bastard :D
Cheers for that mate, shame you won't put up all of your tabbed stuff properly, a new site a la geocities like.

I play the ( G - Dm - F - C ) part like that


3----3----3-----1-------------------
3----3----3--------3--1------------
0----2----x----------------3--0----
0----x----x-------------------------
2----x----x-------------------------
3----2----1-------------------------

Sounds a bit closer to what Lee plays on the tape.

Now, the solo...
kopite1892
 
Posts: 111
Joined: Mon Jun 06, 2011 4:55 pm


Return to Tablature

Who is online

Users browsing this forum: No registered users and 1 guest