I.O.U Tab

MODERATED Musical notation for songs by The La's.

Moderators: Tony, Syl

I.O.U Tab

Postby GwladysStreet91 » Wed Feb 02, 2011 5:30 am

I know im new here and theres a seperate forum for tabs, but it seems pretty dead in there so has anyone got a decent tab for I.O.U?

Having trouble trying to work it out for myself :oops:
GwladysStreet91
 
Posts: 55
Joined: Wed Feb 02, 2011 5:26 am

Re: I.O.U Tab

Postby Tony » Wed Feb 02, 2011 9:14 am

User avatar
Tony
 
Posts: 2315
Joined: Mon Jun 17, 2002 5:13 pm

Re: I.O.U Tab

Postby GwladysStreet91 » Wed Feb 02, 2011 5:41 pm

cheers mate. sounds good! :D
GwladysStreet91
 
Posts: 55
Joined: Wed Feb 02, 2011 5:26 am

Re: I.O.U Tab

Postby kopite1892 » Fri Sep 02, 2011 10:35 am

Chords are sound, but I still can't play the lead (main) guitar properly, hammer-ons and pull-offs an' all.
Doesn't sound good when I try to play these tabs.
kopite1892
 
Posts: 111
Joined: Mon Jun 06, 2011 4:55 pm

Re: I.O.U Tab

Postby Ninny » Fri Sep 02, 2011 8:50 pm

You could try this, it has sort of a tumbling rhythm to it:

-|--------------------------------------------------3----3---2----2-----------------------------
-|------------------------------------------2--2----0---0----3---3--------------------------------
-|--------2-----------0--------------------2--2----0----0---2----2----2--------2-----------------------
-|---------------------------------0--------2--2----0---0---0----0----0--------0----------------------
-|--0----------0------------0--------------0---0---2---2------------------3b4------3p2p0--------------------
-|---------------------------------------------------3---3--------------------------------------3p2p0----
A G D


------------3---3---2---2-----------------------------
---2--2----0---0---3---3--------------------------------
---2--2----0---0---2----2----2--------2--2---------------------
---2--2----0---0---0----0----0--------0--0--------------------
---0---0---2---2------------------3b4-------3b4--------------------
------------3---3------------------------------------------
A G D
Ninny
 
Posts: 31
Joined: Mon Dec 06, 2010 7:50 pm

Re: I.O.U Tab

Postby kopite1892 » Sun Sep 04, 2011 2:13 pm

Cheers la', sounds boss now.
Any chance of posting more tabs ?
I read your post in another thread and it looks like you've guessed most of the songs. I wouldn't mind if you shared.
kopite1892
 
Posts: 111
Joined: Mon Jun 06, 2011 4:55 pm

Re: I.O.U Tab

Postby Ninny » Mon Sep 05, 2011 3:13 pm

Maybe after some time. Currently in the process of moving flat, selling my guitar for the deposit and trying to finish writing a book, but I might get round to it when all that's done.

Tears in the Rain off the Kitchen tapes is basically all Em C B7, and Am B7 Em B7 for the chorus,but there's a few G's and things thrown in certain places, and if you got those chords it's not hard to work out all the twiddly bits in-between.
Ninny
 
Posts: 31
Joined: Mon Dec 06, 2010 7:50 pm


Return to Tablature

Who is online

Users browsing this forum: No registered users and 1 guest