Ladies & Gentleman

MODERATED Musical notation for songs by The La's.

Moderators: Tony, Syl

Ladies & Gentleman

Postby billyjoe » Wed Sep 10, 2008 1:28 pm

Intro:

-----7------------5-----------3-----------5-----------------
-----5------------5-----------5-----------5------------------
------------------------------------------------------------
------------------------------------------------------------
------------------------------------------------------------
------------------------------------------------------------

Em, D (xx023x), A, C, Em, C, A then D
billyjoe
 
Posts: 83
Joined: Tue Jul 01, 2008 3:07 pm

Re: Ladies & Gentleman

Postby Tony » Wed Jun 01, 2011 11:11 pm

As found on ze Crescent tape. A full step down if memory serves . .

e|7----5---3---5---7---5---3---5-----------------|
B|5----5---5---5---5---5---5----5----------------|
G|--------------------------------------------------|
D|--------------------------------------------------|
A|--------------------------------------------------|
E|------------------------------------0-0-0-3-0-----|

Let the notes ring out for the intro, beat out the rhythm if you want. do the little bass fill with your thumb if possible to keep the notes ringing.

Chords:

Em / Dsus2 / A / C / Em / C / A / Dsus2 /A / Em

If you haven't noticed you're going from Em and back again!

Rhythm for the lyrics, such as they are:

Em-------------Dsus-------A---------------------C--------Em
Ladies and----Gentle----men welcome to- gether Again

Hit the chord once for each syllable! So "ladies and" is Em three times in a row, same timing as the vocals.

The key to getting the sound right is the emphasis on the G and B strings; the notes formed on those strings hold the melodic element of the strumming pattern, you don't need to hit the entire chord. For example when you hit Em, strike for the G and B strings.

One little trick that helps flesh it out: Before you begin the chord cycle you can hit open E to start (like the last note in the tab above).

If this sounds tricky I've put a quick recording of this on my Soundcloud to give you the general idea:
http://soundcloud.com/tgarvey/las-tutorial-ladies-and

All the things you catch by accident in a tune. . .!
User avatar
Tony
 
Posts: 2315
Joined: Mon Jun 17, 2002 5:13 pm


Return to Tablature

Who is online

Users browsing this forum: No registered users and 2 guests