Page 1 of 1

Minefield chords

PostPosted: Tue Apr 10, 2007 5:47 pm
by big shabba
Anyone know these?

PostPosted: Thu Apr 12, 2007 7:09 pm
by callin_all
never heard the song lad you got it?

PostPosted: Fri Apr 13, 2007 4:42 pm
by big shabba
yeah, i'm sure it was from here i got it. It's the version tagged on to Rebound from some gig 8)

PostPosted: Fri Apr 13, 2007 5:55 pm
by callin_all
yeah i got the rebound track. any chance of sending the minefield one mate?

thanks

PostPosted: Thu May 24, 2007 8:21 pm
by Tony
Minefield is the slow tune they play after Rebound on that file. Live that is, not the Crescent rebound.

PostPosted: Fri May 25, 2007 4:21 pm
by callin_all
o is it yeah nice one i didnt know tha

PostPosted: Fri May 25, 2007 6:16 pm
by Rod Cow
Haven't worked these chords out yet but I think they are non-standard chords where the bass note is not the one you'd expect to find.

Then there's the fact we know Lee has some funny tuning going on which makes it harder (and-to be fair- if that's the case then it probably made it difficult for the Crescent lads to play along if this was the first time thy were hearing the songs)

I'll get back to you if I suss it

Cheers,
Paul

Re: Minefield chords

PostPosted: Thu Sep 22, 2011 6:02 pm
by kopite1892
Mainly G-Bb-C.
Try and jam around these (different positions and all), it'll sound good.

Re: Minefield chords

PostPosted: Sun Oct 23, 2011 4:29 pm
by Ally
Seems to be based around the following progression:
EADGBe
x-10-9-0-7-0
x-9-x-0-7-0
x-3-2-0-1-0

With the odd pinkie on the B-string.

Re: Minefield chords

PostPosted: Sun Oct 23, 2011 9:27 pm
by Flying Machine
Ally wrote:Seems to be based around the following progression:
EADGBe
x-10-9-0-7-0
x-9-x-0-7-0
x-3-2-0-1-0

With the odd pinkie on the B-string.


think you mean 8 rather than 7 on the first two shapes?

sounds good, worked out some of the rest...

rough as a badgers eyebrow though..

edit:
melody
quite a complicated pattern you've gotta pick up..
e|------x-----x-------x-------x-----------x------x-----x-------
B|-----8------8------1-------h3---------8------10----1-------
G|----0------0------0-------0----------0------0-----0---------
D|----9------0------2------2-----------9------0----2--------
A|---10-----9------3------3---------10-----9-----3--------
E|----x-----x------x------x----------x-----x------x-------etc

some of the tabs should go something like this
bassline
e|-------------------------------------------------------------------x--------------------------x----------------------
B|-------------------------------------------------------------------8--------------------------8----------------------
G|-------------------------------------------------------------------0--------------0----------0----------------------
D|-----------------------------------------2-------------------------9-----------8--8h10-----9----------------------
A|-----------8--8-8h10---------1-1-1p3---------8--8-8h10-----10-------s10-10----------10----------8--8-8h10--------
E|--------s10-10-------------8--8-----------s10-10---------------x---------------------------------s10-10--------------etc (bit rough that bit)

riff (in between)
e|----x--x--x-------7----
B|----8--8--1h3---6----
G|----0--0 -0----7-------
D|----9--0--2------------
A|---10--9--3----------
E|----x--x--x-----------

e|----x--x--x------7-------
B|----8--8--1h3-----8-----
G|----0--0 -0------7------
D|----9--0--2------------
A|---10--9--3-----------
E|----x--x--x------------

e|----x--x--x-----------
B|----8--8--1h3---6----
G|----0--0 -0---------7----
D|----9--0--2-------5-------
A|---10--9--3-----------
E|----x--x--x---------

please, anyone any corrections

Re: Minefield chords

PostPosted: Mon Oct 24, 2011 1:01 pm
by Ally
Flying Machine wrote:
think you mean 8 rather than 7 on the first two shapes?



Yup, I do indeed. Cheers!