Rebound

MODERATED Musical notation for songs by The La's.

Moderators: Tony, Syl

Rebound

Postby BRIGHTS » Fri Mar 16, 2007 6:56 pm

I'm wondering if anyone has worked out this? I can't for the life of me get it nailed. Any suggestions?
BRIGHTS
 
Posts: 130
Joined: Thu May 05, 2005 12:34 pm
Location: Merseyside

Re: Rebound

Postby Raindance+++ » Thu Oct 16, 2008 11:01 am

Using the ''let us jam'' version of it, It's loosely based around G# to F#... work from there. :D Good luck. x

Oh yeah... them two chords but with the guitar tuned down a fret. x
Raindance+++
 
Posts: 45
Joined: Sat Sep 20, 2008 9:23 pm

Re: Rebound

Postby Rod Cow » Mon Nov 17, 2008 5:54 am

Then why not 'A' to 'G' which would make it all much easier?
User avatar
Rod Cow
 
Posts: 915
Joined: Mon Mar 28, 2005 6:14 pm
Location: Durham Town

Re: Rebound

Postby Flying Machine » Sat Feb 28, 2009 2:08 pm

the riff seem to go alittle like this, its not perfect but the bass notes are right and if you pick out the notes within a strum it sounds ok. play the open notes that are inbetween each bass note like a sort of john lee hooker/stones - hip shake boogie sort of style. i would love to see mavers play this, its sounds like a well slick riff.

e-----------------------------------------------
B-----------------------------------------------
G----0--0--0---0----0-----0--0--0---0----0-
D-------------0--33----------------0--33-----
A-------1--3-----------------1--3------------
E---3--------------------3-----------------


e------------------------------------------
B------------------------------------------
G----0--0--0---0----0-----0--0--0---0----0-
D-------------0--33----------------0--33---
A-------1--3-----------------1--3----------
E---3--------------------3-----------------


e---------------------3-------------------1---------------------3---------------------1-
B---------------------3-------------------3---------------------3---------------------1-
G-----------------------------------------------------------------------------------------
D------------------------------------------------------------------------------------------
A-------------------------------------------------------------------------------------------
E---33-22-11-22-3----33-22-11-22-3------33-22-11-22-3------33-22-11-22-3---
User avatar
Flying Machine
 
Posts: 207
Joined: Wed Feb 09, 2005 7:38 pm

Re: Rebound

Postby Raindance+++ » Tue Apr 14, 2009 12:41 am

Rod Cow wrote:Then why not 'A' to 'G' which would make it all much easier?


Because I was using maver's tuning... which I believe is ethier half a step or a full step down...
Raindance+++
 
Posts: 45
Joined: Sat Sep 20, 2008 9:23 pm


Return to Tablature

Who is online

Users browsing this forum: No registered users and 2 guests