SORRY (Savoy, Cork)

MODERATED Musical notation for songs by The La's.

Moderators: Tony, Syl

SORRY (Savoy, Cork)

Postby casinojack » Thu Dec 28, 2006 7:04 am

dunna recon if anyones chirped out SORRY. might nowt be spot on..hope its a ringer to all tho.

Cheers
walt


Opening: Dadd11, A7, A7, A

E5 .......... E7sus .......... Em
How do you stop this rain parade
Asus .... Em
I need out
[repeat]
Asus
I need some more rain
Em ......... Asus
and I feel like I do
D5 ......... E7sus
feel a lot cold in the rain
Em6 ....... Esus
but cold that's ok
E5 .......... E7sus ........... Em
How do you stop this rain parade
Asus... Em
I need out

chorus
S..o..r..r..y...S..o..r..r..y
Aadd11 ...... A(ninth fret)
You know it rains so hard
A(fifth fret)
I know it rains so hard
Bm .......... Bsus/D
I know it rains so hard
A
I know it rains so hard

(repeat chorus once)

How do you stop this rain parade
I need out (repeat)

Solo (verse chords mixed around)

How do you stop this rain parade
I need out (repeat once)
Have we been your bad day
and i feel like i do
feel like there's nothing there
and i feel like i do
yeah i feel much more warm
yeah i feel much more hot
yeah i feel more dry
sapped dry by the fire

chorus
S..o..r..r..y...S..o..r..r..y
You know it rains so hard
I know it rains so hard
I know it rains so hard
I know it rains so hard (repeat 3 times)

Will you let me in...end


..Dadd11..A7.... A7........ A....... E5...E7sus4...Em....Asus4..Em6....
E||--5----|-------|--5----|--5----|--0----|--0----|--0----|--0----|--0----|
B||--7----|--5----|--5---|--5----|--0----|--0----|--0----|--3----|--2----|
G||--7----|--6----|--6---|--6----|--4----|--2----|--0----|--2----|--0----|
D||--5----|--5----|--5---|--7----|--2----|--0----|--2----|--0----|--2----|
A||--0----|--7----|--7---|--7----|--2----|--0----|--2----|--0----|--2----|
E||--0----|--5----|--5---|--5----|--0----|--0----|--0----|--------|--0----|


Esus4..... Aadd11.... A.... Bm.... Bsus4/D
E||--0----|--9-----|--9-----|--7----|--6----||
B||--0----|--10---|--10----|--7----|--6----||
G||--2----|--9-----|--9-----|--7----|--8----||
D||--2----|--0-----|--11---|--------|--0----||
A||--0----|--0-----|--0-----|--------|--------||
E||--0----|--0-----|--0-----|--------|--------||

Tablature assisted courtesy of Rod Cow

Thanks Paul!
User avatar
casinojack
 
Posts: 81
Joined: Wed Feb 18, 2004 4:19 am
Location: San Fran

Return to Tablature

Who is online

Users browsing this forum: No registered users and 1 guest